Pages Menu
TwitterRssFacebook
Categories Menu

Adicionado in Aulas de Violão

Exercí­cios de cromatismo

12345
(5,00 de 5 com 1 votos)

Hoje aqui no Blog Violão Brasil vamos ensinar a todos exercícios para desenvolver a coordenação motora! A maior dificuldade de todo aluno do Curso de Violão Básico é a falta de agilidade ou força para pressionar as cordas ao tocar violão.

Por isso caros leitores, hoje vamos estar disponibilizando uma série de ví­deos e exercí­cios do site Violão Básico do nosso grande amigo Zé do Belo, que na minha opinião oferece um dos melhores cursos de violão disponíveis na internet.

Os exercícios de cromatismo que você vai ver logo abaixo são conhecidos como exercí­cios de cromatismo, esse tipo de exercí­cio tem como objetivo fortalecer a musculatura dos dedos, facilitando a experiência de um iniciante ao tocar violão.

Faça o teste e comprove, execute os exercícios do curso de violão de hoje aqui do Blog e descubra os resultados milagrosos que eles podem proporcionar a você!

Vamos aos exercí­cios – Qualquer dúvida sobre o curso de violão ou dificuldade para compreender qualquer parte da aula de violão de hoje deixe seu comentário.

Segue abaixo uma série de exercí­cios de cromatismo para fortalecer os dedos e melhorar a coordenação motora ao tocar violão:

  • casa1 – dedo1
  • casa2 – dedo2
  • casa3 – dedo3
  • casa4 – dedo4

Se por acaso você sentir muita dificuldade para executar os exercícios de cromatismo que vamos mostrar na aula de violão de hoje, você poderá fazê-lo assim:

  • casa5 – dedo1
  • casa6 – dedo2
  • casa7 – dedo3
  • casa8 – dedo4

Faça os exercí­cios no violão seguindo as três combinações de dedilhado:

  • Indicador e médio
  • Médio e anelar
  • Indicador e anelar
-1-2---------------------|-1-3---------------------
-----1-2-----------------|-----1-3-----------------
---------1-2-------------|---------1-3-------------
-------------1-2---------|-------------1-3---------
-----------------1-2-----|-----------------1-3-----
---------------------1-2-|---------------------1-3-

-1-4---------------------|-2-3---------------------
-----1-4-----------------|-----2-3-----------------
---------1-4-------------|---------2-3-------------
-------------1-4---------|-------------2-3---------
-----------------1-4-----|-----------------2-3-----
---------------------1-4-|---------------------2-3-

-2-4---------------------|-3-4---------------------
-----2-4-----------------|-----3-4-----------------
---------2-4-------------|---------3-4-------------
-------------2-4---------|-------------3-4---------
-----------------2-4-----|-----------------3-4-----
---------------------2-4-|---------------------3-4-

Dificuldade para entender a tablatura de violão exposta acima? Clique aqui para saber mais!

 

Veja agora o vídeo da aula de violão de hoje:

Seguindo agora a sequência exercí­cios de cromatismo da aula de violão de hoje, o próximo exercício tem como objetivo melhorar a coordenação motora e fortalecer os dedos das duas mãos.  Nota: O números das casas coincidem com os números dos dedos da mão esquerda que você utiliza para pressionar as cordas do violão.

Se você tiver qualquer dificuldade, utilize as casas localizadas mais no centro do braço do violão, começando pela 5 casa ou 7, que são mais fáceis.

Utilize o dedo polegar para dedilhar todas elas.

Veja a tablatura no violão dos Exercí­cios de cromatismo:

-1-4-3-2---------------------------------------------- 
----------1-4-3-2-------------------------------------
-------------------1-4-3-2----------------------------
----------------------------1-4-3-2------------------- 
-------------------------------------1-4-3-2----------
----------------------------------------------1-4-3-2- 
----------------------------------------------1-4-3-2- 
-------------------------------------1-4-3-2---------- 
----------------------------1-4-3-2------------------- 
-------------------1-4-3-2---------------------------- 
----------1-4-3-2------------------------------------- 
-1-4-3-2----------------------------------------------

Bom pessoal vamos encerrar a aula de violão de hoje por aqui, se você estiver a procura de um curso de violão prático e com resultados rápidos acesse:

www.tocarviolao.com.br

Com o curso de violão Guitarnow mais de 300 mil pessoas já aprenderam a tocar violão em menos de um mês! Aproveite essa indicação, aprenda a tocar violão até o verão!

Bons estudos

Blog Violão Brasil

4 Comments

  1. Na última semana eu acredito que estou tocando violão bem melhor.
    Desejo evoluir ainda mais, graças as aulas do violão Brasil!

  2. Olá Violão Brasil,

    Eu sempre desejei tocar violão desde pequena,
    Quando eu ligava para o meu avô as vezes eu chegava a chorar para que ele me desse um, mas como Deus ouviu minhas preces (hehehe) hoje eu ganhei o meu primeiro violão.

    Obrigado

  3. Eu queria um violão porque desde criança eu gosto de música e da sonoridade do violão, minha referência musical sempre foi a Bruna Karla pois suas músicas são inspiradas na obra de Deus, obrigada beijos!

  4. Com certeza este curso tem abençoado muitas pessoas. Parabens pelo o meétodo como nos ensianam a tocar violão.
    Esse curso tem deixado muitas pessoas felizes e realizadas. Isso é bom e faz bem a alma.
    De forma direta ou indireta vcs tem sido bênção nas mãos de Deus.

Post a Reply

O seu endereço de e-mail não será publicado. Campos obrigatórios são marcados com *